Free songs
  •  
  •  

Wlazł kotek na płotek

e-|--7h8--5-7--7-7-7-7h8--5-7--7-7-7-7h8--5-7--7-7-7-7h8--5-7--|
B-|------------------------------------------------------------|
G-|------------------------------------------------------------|
D-|------------------------------------------------------------|
A-|------------------------------------------------------------|
E-|------------------------------------------------------------|

|-Chorus-chords from here
e-|--2-2-2-2h3--0-2--2-2-2-2h3--0-2--2-2-2-2h3--0-2--2-0--0-2--|
B-|------------------------------------------------------------|
G-|------------------------------------------------------------|
D-|------------------------------------------------------------|
A-|------------------------------------------------------------|
E-|------------------------------------------------------------|

e-|--5--5--5-7--7-5-5-5-7--7-5-5-3-2-2--2-0-0--|
B-|--------------------------------------------|
G-|--------------------------------------------|
D-|--------------------------------------------|
A-|--------------------------------------------|
E-|--------------------------------------------|

e-|--2-2-2-3--0-2--2-2-2-3--0-2--2-2-2-3--0-2--2-0--0--|
B-|----------------------------------------------------|
G-|----------------------------------------------------|
D-|----------------------------------------------------|
A-|----------------------------------------------------|
E-|----------------------------------------------------|